Farhat Guitar
Online Private Lessons – Contact Me
Prof. Marcos Farhat
+(54 911) 6577-1480

Metallica| One
 Estilo:  Heavy Metal    
E|------------------|------------------|-------------------------------|
B|------------------|------------------|-------------------------------|
G|------------------|------------------|-------------------------------|
D|----4-----0-0-4-0-|----4-----0-4-4-0-|----4-----0-0-4-0-----4---0----|
A|-2-----2----------|------------------|-2-----2-----------------------|
E|------------------|3-----3-----------|-------------------3----3---s5-| 
|
E|------------------|------------------|------------------------------|
B|------------------|------------------|------------------------------|
G|------------------|----------------0-|------------------------------|
D|----4-----0-0-4-0-|----4-----0-4-4---|----4-----0-4-4-0-------------|
A|-2-----2----------|-0-----0----------|----------------------2-----2-|
E|------------------|------------------|-3-----3-----------0-----2----|

E|------------------|------------------|-------------------------------|
B|------------------|------------------|-------------------------------|
G|------------------|------------------|-------------------------------|
D|----4-----0-0-4-0-|----4-----0-4-4-0-|----4-----0-0-4-0-----4---0----|
A|-2-----2----------|------------------|-2-----2-----------------------|
E|------------------|3-----3-----------|-------------------3----3---s5-| 
|
E|------------------|------------------|------------------------------|
B|------------------|------------------|------------------------------|
G|------------------|----------------0-|------------------------------|
D|----4-----0-0-4-0-|----4-----0-4-4---|----4-----0-4-4-0-------------|
A|-2-----2----------|-0-----0----------|----------------------2-----2-|
E|------------------|------------------|-3-----3-----------0-----2----|
video
Hide picture