Farhat Guitar
Online Private Lessons – Contact Me
Prof. Marcos Farhat
+(54 911) 6577-1480

Metallica| Master of Puppets
 Estilo:  Heavy Metal    
E|--------------------------|   |---------|   |-------------|
B|--------------------------|   |---------|   |-------------|
G|--------------------------|   |---------|   |-------------|
D|--9--7--5--2--4--8--9-----|   |---------|   |-------------|
A|--7--5--3--0--2--6--7-----|   |--2--2---|   |--2--2--2--2-|
E|--------------------------|x2 |--0--0---|X6 |--0--0--0--0-| 
                                 PM---         PM
E|---------|-----------|---------|---------|---------|-----------|---------|---------|-------|
B|---------|-----------|---------|---------|---------|-----------|---------|---------|-------|
G|---------|-----------|---------|---------|---------|-----------|---------|---------|-------|
D|---------|-------6-6-|---------|-------6-|---------|-------6-6-|---------|-------6-|-------|
A|-4-4-5-4-|-4-4-5-4-4-|-4-4-5-4-|-4-4-5-4-|-4-4-5-4-|-4-4-5-4-4-|-4-4-5-4-|-4-4-5-4-|-5--4--|
E|-2-2-3-2-|-2-2-3-----|-2-2-3-2-|-2-2-3---|-2-2-3-2-|-2-2-3-----|-2-2-3-2-|-2-2-3---|-3--2--|
video
Hide picture