Farhat Guitar
Online Private Lessons – Contact Me
Prof. Marcos Farhat
+(54 911) 6577-1480

Led Zeppelin| Stairway to Heaven
 Estilo:     
E|------5---------------------|------8-8-8b10--8-5---------8—10p8--------------|
B|--------8p5-----------------|-8b10---------------8/10-10--------10p8----8h10~|  
G|-7b9--------7p5---7p5-------|----------------------------------------10------|
D|----------------7-----7p5---|------------------------------------------------|
A|--------------------------8~|------------------------------------------------|  
E|----------------------------|------------------------------------------------|
E|-----5-----------------------------------|-5------------------------|
B|-------8p5-------------------------------|---8p5--------------------|
G|-7b9-------7p5---7p5-----------5---5-5-0-|------7p5---7p5-----------|
D|---------------7-----7p5---5-7---7-------|----------7-----7p5-7p5---|
A|-------------------------7---------------|------------------------8-|
E|-----------------------------------------|--------------------------|
video
Hide picture