Farhat Guitar
Online Private Lessons – Contact Me
Prof. Marcos Farhat
+(54 911) 6577-1480

Led Zeppelin| Stairway to Heaven
 Estilo:     
E|-----|------|-2----2|-0------|------|-----|--------|-3--3-|-3p2-2-2-|
B|-----|----1-|---3---|---1--1-|-0h1--|-----|-1—---1-|--0---|-3---3-3-|  
G|-----|---0--|----2--|-----2--|----2-|-----|---0----|---0--|-2---2-2-|
D|-----|--2---|-0-----|-3------|------|-----|-----2--|------|-0---0-0-| 
A|-0-2-|-3----|-------|--------|-0----|-0-2-|-3------|------|---------|  
E|-----|------|-------|--------|------|-----|--------|-3----|---------|
E|-----|-----0-|-2---2-|-0------|------|-----|-------|-3----2-|-0-0-0-| 
B|-----|-------|--3----|--1---1-|-0h1--|-----|-1---1-|---3----|-1-1-1-| 
G|-----|----0--|---2---|----2---|----2-|-----|---0---|-----2--|-0-2-2-|
D|-----|---2---|-0-----|-3------|------|-----|----2--|-0------|-3-3-3-| 
A|-0-2-|-3-----|-------|--------|-0----|-0-2-|-3-----|--------|-------| 
E|-----|-------|-------|--------|------|-----|-------|--------|-------|
video
Hide picture