Farhat Guitar
Online Private Lessons – Contact Me
Prof. Marcos Farhat
+(54 911) 6577-1480

Jimi Hendrix Experience| Foxy Lady
 Estilo:     
E|------------------------------------------------------------------------------|
B|-17b19v19-19r17---------------------------------------------------------------|
G|----------------14vs----------------------------------------------------------|
D|---------------------s15s16v-16s14---------14-16b19-16b19-16v-14h16p14----14v-|
A|-----------------------------------12v-s16-----------------------------16-----|
E|------------------------------------------------------------------------------|

E|----------14--------14----14v----14-17b19-17v-14----14h16p14----|
B|-------14----17b19v----17-----14-----------------17----------14-|
G|-16b18----------------------------------------------------------|
D|----------------------------------------------------------------|
A|----------------------------------------------------------------|
E|----------------------------------------------------------------|

E|-----------------------------------------------------------14----14----------14-|
B|-------14-17-------14-17-------14-17-------------14-17b19v----17----------14----|
G|-16b18-------16b18-------16b18-------16b18-16b18--------------------16b18-------|
D|--------------------------------------------------------------------------------|
A|--------------------------------------------------------------------------------|
E|--------------------------------------------------------------------------------|

E|----14------14-|-----------------------------------------|
B|-17----14------|-----------------------------------------|
G|-------16b18---|-16p14----14-----------------------------|
D|---------------|-------16----16p14----14-----------------|
A|---------------|-------------------16----16p14s12-14b16v-|
E|---------------|-----------------------------------------|
video
Hide picture