Farhat Guitar
Online Private Lessons – Contact Me
Prof. Marcos Farhat
+(54 911) 6577-1480

John Williams| Cavatina
 Estilo:  Clásico    
E|--7---------------|-7----------------|---------9--------------------------------------|-----7--9--------------|---------------|
B|----------5-------|----------9-------|10--12---------10---------------------10--------|-10-----------10-------|---------------|
G|-------4-----4----|-------8-----8----|------------9------9---------------9------9-----|-----------9------9----|----------8----|
D|----------------6-|----6-----------6-|--------11------------11-------11------------11-|--------7------------7-|-------7-----7-|
A|------------------|-6----------------|----------------------------9-------------------|-----------------------|----9----------|
E|--0---------------|------------------|-9----------------------------------------------|--7--------------------|-7-------------|
E|-7------7----------------|----------------5--4-|-4----------------|-2-----------------0-|-2----------------|
B|----10-----------9-------|----------3----------|----------2-------|----------2----------|----------0-------|
G|--------------8-----8----|-------4----4--------|-------2-----2----|-------2-----2-------|-------0-----0----|
D|-----------9-----------9-|----6----------------|----2-----------2-|----4-----------4----|----0-----------0-|
A|-9-----------------------|---------------------|-0----------------|-5-------------------|------------------|
E|--------0----------------|-0-------------------|------------------|---------------------|-3----------------|
E|-0----------------|-0-----------------|-------2----------|-0-----------------------0-|-4--7--11--12--|
B|----------0-------|-----------0-------|-------------4----|----------------------0----|---------------|
G|-------0-----0----|--------2-----2----|-------2--4--2----|-------1-----1-----1-------|---------------|
D|----2-----------2-|-----4-----------4-|----4-----------4-|----4----1-2----2----------|---------------|
A|-3----------------|-2-----------------|-2----------------|---------------------------|---------------|
E|------------------|-------------------|------------------|-0-------------------------|-----------9---|
video
Hide picture