Farhat Guitar
Online Private Lessons – Contact Me
Prof. Marcos Farhat
+(54 911) 6577-1480

Metallica| Master of Puppets
 Estilo:  Heavy Metal    
E|-----------------|------------------|-----------------|-----------------|
B|-----------------|------------------|-----------------|-----------------|
G|-----------------|------------------|-----------------|-----------------|
D|-----------------|------------ 4-4--|-----------------|-------------4---|
A|-----3-----3-----|-3-----3-----2-2--|-----3-----3-----|-3-----3-----2---|
E|-0-0-1-0-0-1-0-0-|-1-0-0-1-0-0------|-0-0-1-0-0-1-0-0-|-1-0-0-1-0-0-----|x8
  PM--  PM--  PM--     PM--  PM--       PM--  PM--  PM--    PM--  PM--      
E|---------------|-------------------------|---------------------| 
B|---------------|-------------------------|---------------------| 
G|---------------|-------------------------|---------------------| 
D|---------------|-----------------2-4-5---|---------------------| 
A|---------------|-----------2-3-5-------3-|-333-2-3-5-3-2-------| 
E|-0-0-0-0-0-0-0-|-000-2-3-5---------------|---------------3-2---| x3
   PM----------------------------                PM--------------
E|---------------|-------------------------|-------------------------------------------|  
B|---------------|-------------------------|-------------------------------------------|
G|---------------|-------------------------|-------------------------------------------|
D|---------------|-----------------2-4-5---|-------------------------------------------|
A|---------------|-----------2-3-5-------3-|--333-2-3-5-3-2-----2--333-2-3-5-3-2-------|
E|-0-0-0-0-0-0-0-|-000-2-3-5---------------|----------------3-2-0-----------------3-2--|
  PM------------------------------             PM--------------   PM-----------------
video
Hide picture