Farhat Guitar
Online Private Lessons – Contact Me
Prof. Marcos Farhat
+(54 911) 6577-1480

Pink Floyd| Shine on you crazy diamond
 Estilo:  Rock    
e|--------0--------|
B|----6--------6---|
G|------0--------0-|
D|--8--------8-----|
A|-----------------|
E|-----------------|

e|-0------8------10------8----|
B|---6------6------6-------6--|
G|----------------------------| x10
D|-----8------8------8------8-|
A|----------------------------|
E|----------------------------|

e|-6-----6-----5-----6-----|    e|-5-----5-----4-----5-----|
B|---8-----8-----8-----8---|    B|---7-----7-----7-----7---|
G|-------------------------| x2 G|-------------------------|
D|-----8-----8-----8-----8-|    D|-----7-----7-----7-----7-|
A|-------------------------|    A|-------------------------|
E|-------------------------|    E|-------------------------|

e|-6-----5-----4-----5-----|
B|---7-----7-----7-----7---|
G|-------------------------|
D|-----7-----7-----7-----7-|
A|-------------------------|
E|-------------------------|

e|-0-----8-----10-----8-----|
B|---6-----6------6-----6---|
G|--------------------------| x12
D|-----8-----8------8-----8-|
A|--------------------------|
E|--------------------------|

e|-6-----6-----5-----6-----|    e|-5-----5-----4-----5-----|
B|---8-----8-----8-----8---|    B|---7-----7-----7-----7---|
G|-------------------------|    G|-------------------------|
D|-----8-----8-----8-----8-| x2 D|-----7-----7-----7-----7-|
A|-------------------------|.   A|-------------------------|
E|-------------------------|    E|-------------------------|

e|-6-----5-----4-----5-----|
B|---7-----7-----7-----7---|
G|-------------------------|
D|-----7-----7-----7-----7-|
A|-------------------------|
E|-------------------------|

e|-0-----8-----10-----8-----|
B|---6-----6------6-----6---|
G|--------------------------| fade out
D|-----8-----8------8-----8-|
A|--------------------------|
E|--------------------------|
video
Hide picture