Farhat Guitar
Online Private Lessons – Contact Me
Prof. Marcos Farhat
+(54 911) 6577-1480

Metallica| One
 Estilo:  Heavy Metal    
E||----------------------------------|------------------------------|  
B||----------------------------------|------------------------------|  
G||----------------------------------|------------------------------|   
D||--------------------2-------------|-----------2-------------3----|
A||--------------------2-------------|-----------2-------------3----|
E||--0--0--0--0--0--0-------0--0--0--|--0--0--0-------0--0--0-------|x3

E|----------------------------------|------------------------------|------------------------|------------------------|
B|----------------------------------|------------------------------|------------------------|------------------------|
G|----------------------------------|------------------------------|------------------------|------------------------|
D|--------------------2-------------|-----------2-------------3----|--------5----------5----|--------5----------5----|
A|--------------------2-------------|-----------2-------------3----|--------5----------5----|--------5----------5----|
E|--0--0--0--0--0--0-------0--0--0--|--0--0--0-------0--0--0-------|--3--3--3----3--3--3----|--3--3--3----3--3--3----|x2

E|------------------------------|------------------------|
B|------------------------------|------------------------|
G|------------------------------|------------------------|
D|--------------------2----2----|--------3----------3----|
A|--------------------2----2----|--------3----------3----|
E|--0--0--0--0--0--0--0----0----|--1--1--1----1--1--1----|x3

E|------------------------------|------------------------|------------------------|----------------------------------|
B|------------------------------|------------------------|------------------------|----------------------------------|
G|------------------------------|------------------------|------------------------|----------------------------------|
D|--------------------2----2----|--------5----------5----|--------5----------5----|--------------------2-------------|
A|--------------------2----2----|--------5----------5----|--------5----------5----|--------------------2-------------|
E|--0--0--0--0--0--0--0----0----|--3--3--3----3--3--3----|--3--3--3----3--3--3----|--0--0--0--0--0--0-------0--0--0--|

E|------------------------------|-----------------------------------|--------------------------|
B|------------------------------|-----------------------------------|--------------------------|
G|------------------------------|-----------------------------------|--------------------------|
D|-----------2-------------3----|--2--2--2--2--2--2--2-----2--2--2--|--2--2--2--2--------------|
A|-----------2-------------3----|--2--2--2--2--2--2--2-----2--2--2--|--2--2--2--2--------------|
E|--0--0--0-------0--0--0-------|--0--0--0--0--0--0--0-----0--0--0--|--0--0--0--0--------------|
video
Hide picture