Farhat Guitar
Online Private Lessons – Contact Me
Prof. Marcos Farhat
+(54 911) 6577-1480

Franja de Gaza| Jump
 Estilo:  Hard Rock    
Eb |-----------------------------------|----------------------------------------------|
Bb |-----------------------------------|--------------10--12-13—13p12p10--12-13-------|
Gb |--9-10-9-7-9p7---------------9-----|-9-10-9-7-9p7---------------------------------|
Db |---------------10—-9-9-9-9-9---9-7-|----------------------------------------------|
Ab |-----------------------------------|----------------------------------------------| 
Eb |-----------------------------------|----------------------------------------------|	 

Eb|-------------------------13-12---13-12-|--17b20—17--15-13--12-13-15--13-12-13-------|
Bb|-13p12p10--12-13--12-10----------------|--------------------------------------------|
Gb|---------------------------------------|--------------------------------------------|
Db|---------------------------------------|--------------------------------------------|  
Ab|---------------------------------------|--------------------------------------------|    
Eb|---------------------------------------|--------------------------------------------|

Eb|----------------------------------|----------------------------------|
Bb|-12h13p12h13p12—12h13p12h13-------|-9h10p9h10------------------------|
Gb|----------------------------------|-------------9h10p9h10p9---7b9----|
Db|----------------------------------|----------------------------------|  
Ab|----------------------------------|----------------------------------|    
Eb|----------------------------------|----------------------------------|
video
Hide picture