Farhat Guitar
Online Private Lessons – Contact Me
Prof. Marcos Farhat
+(54 911) 6577-1480

Metallica| One
 Estilo:  Heavy Metal    
E|-----------------------|
B|-----------------------|
G|-----------------------|
D|-----2--4--2--------4--|
A|--5--0--2--0--5--4--2--|
E|--3-----------3--2-----|
       Pm-----
E|-------------------------------|-----------------------------|
B|-------------------------------|-----------------------------|
G|-------------------------------|-4--4-----4-----5--5-----5---|
D|--5---5--7--5---4--4--4--5--4--|-4--4-----4-----5--5-----5---|
A|--7---7--7--7---5--5--5--5--5--|-2--2-----2-----3--3-----3---|
E|-------------------------------|-------2-----2--------3----3-|x4
                                        PM    PM        PM   PM

E|-------------------------------|-----------------------------|
B|-------------------------------|-----------------------------|
G|-------------------------------|-4--4-----4-----5--5-----5---|
D|--5---5--7--5---4--4--4--5--4--|-4--4-----4-----5--5-----5---|
A|--7---7--7--7---5--5--5--5--5--|-2--2-----2-----3--3-----3---|
E|-------------------------------|-------2-----2--------3----3-|
                  PM-----------          PM   PM       PM    PM
E|-------------------------------|---------------------------------|-----|
B|-------------------------------|---------------------------------|-----|
G|-------------------------------|-4--4-----4----5--x--x--5----5---|-----|
D|--5----5--7--5--4--4--4--5--4--|-4--4-----4----5--x--x--5----5---|--5--|
A|--7----7--7--7--5--5--5--5--5--|-2--2-----2----3--x--x--3----3---|--3--|
E|-------------------------------|-------2----2-------------3----3-|--0--|
                  PM-----------          PM   PM           PM    PM
video
Hide picture