Farhat Guitar
Online Private Lessons – Contact Me
Prof. Marcos Farhat
+(54 911) 6577-1480

Red Hot Chilli Peppers| Can´t Stop
 Estilo:     
E|-------------------------|-------7-------------|------------------------|--------------------|
B|-12-12-12-12-10-10-10-12-|7-7-10-7-8--8--8--10-|12-12-12-13-10-10-10-12-|7-7-7-7-8--8--8--10-|
G|-12-12-12-12-11-11-11-11-|7-7-7--7-9--9--9--9--|12-12-12-12-11-11-11-11-|7-7-7-7-9--9--9—-9--|
D|-14-14-14-14-12-12-12-12-|9-9-9--9-10-10-10-10-|14-14-14-14-12-12-12-12-|9-9-9-9-10-10-10-10-|
A|-------------------------|---------------------|------------------------|--------------------|
E|-------------------------|---------------------|------------------------|--------------------|
E|-------------------------|--------------------|------------------------|-------------------------------------|
B|-12-12-12-13-10-10-10-12-|7-7-7-7-8--8--8--10-|12-12-12-13-10-10-10-12-|7-7-7-7-8--8---8—-8--8--8—-8---9--8--|
G|-12-12-12-12-11-11-11-11-|7-7-7-7-9--9--9--9--|12-12-12-12-11-11-11-11-|7-7-7-7-9--9---9—-9--9--9—-9---9--9--|
D|-14-14-14-14-12-12-12-12-|9-9-9-9-10-10-10-10-|14-14-14-14-12-12-12-12-|9-9-9-9-10-10--10-10-10-10-10--10-10-|
A|-------------------------|--------------------|------------------------|-------------------------------------|
E|-------------------------|--------------------|------------------------|-------------------------------------|
video
Hide picture