Farhat Guitar
Online Private Lessons – Contact Me
Prof. Marcos Farhat
+(54 911) 6577-1480

Metallica| One
 Estilo:  Heavy Metal    
E|--------------------------------------------|   |-----------------------------------------------------------------|
B|--------------------------------------------|   |-----------------------------------------------------------------|
G|--------------------------------------------|   |-----------------------------------------0-----------------------|
D|-----4-----0--0--4--0-----4-----0—-4—-4--0--|   |-----4-----0—-0--4--0-----4-----0-—4--4--------4-----0-—0--4--0--|
A|--2-----2-----------------------------------|   |--2-----2--------------0-----0-----------------------------------|
E|-----------------------3-----3--------------|x2 |--------------------------------------------3-----3--------------|

E|---------------------------------------|
B|---------------------------------------|
G|---------------------------------------|
D|-----2h4--2--------------0-------------|
A|----------------4-----5-------------7--|
E|--0----------2-----3--------3—-3s5-----|
video
Hide picture