Farhat Guitar
Online Private Lessons – Contact Me
Prof. Marcos Farhat
+(54 911) 6577-1480

Guns and Roses| Paradise City
 Estilo:  Hard Rock    
Eb|-------|------|-------------|-------|------|-------------|-------|------|-------------|----------|
Bb|-------|------|-------------|-------|------|-------------|-------|------|-------------|----------|
Gb|-------|------|----------3b-|-------|------|--------5-3b-|-------|------|----------3b-|----------| 
Db|-5-3-4-|5-3-4-|5-3-5-3-5----|-5-3-4-|5-3-4-|5-3-5-3------|-5-3-4-|5-3-4-|5-3-5-3-5----|-5-3--5-3-|
Ab|-------|------|-------------|-------|------|-------------|-------|------|-------------|----------|  
Eb|-------|------|-------------|-------|------|-------------|-------|------|-------------|----------|
   PM----------------------     PM----------------------     PM---------------------     PM------

Eb|-----------------|---------------------|
Bb|-----------------|-------5-------------|
Gb|-5==b6r5b6r5b6r5-|-3-5b6===pb6r5-3-----|
Db|-----------------|-----------------5-5-|
Ab|-----------------|---------------------|
Eb|-----------------|---------------------|
video
Hide picture