Farhat Guitar
Online Private Lessons – Contact Me
Prof. Marcos Farhat
+(54 911) 6577-1480

Bon Jovi| You Give Love a Bad Name
 Estilo:  Hard Rock    
e|--------------------------------------------|
b|--------------------------------------------|
g|-12~-~8~-5s7-7s8-8s10-10s12-12s15-15s17-17v-|
d|--------------------------------------------|
a|---------3s5-5s6-6s8—-8s10—-10s13-13s15-15v-|
e|--------------------------------------------|

e|------------------------------------------------------------------------------------------------|
b|-8h11p8h11p8h11t13s20p8h11p8h11p8h11t13s20p811p8h11t13s20p8h11p8h11p8~h11p8h11p8-11b13v-13--15--|
g|----------------------------------------------------------------------------------------15v-17v-|
D|------------------------------------------------------------------------------------------------|
a|------------------------------------------------------------------------------------------------|
e|------------------------------------------------------------------------------------------------|

e|---------------------------------|
b|---------------------------------|
g|------------------------------0~-|
d|----------1---------------1-3-0~-|
a|3-1---1-3---3-1-3-1---1-3--------|
e|----3---------------3------------|

video
Hide picture