Farhat Guitar
Online Private Lessons – Contact Me
Prof. Marcos Farhat
+(54 911) 6577-1480

Queen| We Will Rock You
 Estilo:     
E|------------------------------------------------------------|-------------------------------------|
B|-----2-----2—-x--x—-x—-x--2--2--2----2--14--14--15—-15--14—-|--14--14--15--15--14--15--14--15--14-|
G|--5--2--0—-2—-x--x—-x—-x--2--2--2-0—-2--14--14--14—-14--14--|--14--14--14--14--14--14—-14--14--14-|
D|--5--2--0—-2—-x--x—-x-—x--2--2--2-0—-2--14—-14--16—-16--14--|--14—-14--16—-16--14--16--14--16--14-|
A|--3--0--x—-0—-x--x—-x—-x--0--0--0-x--0----------------------|-------------------------------------|
E|--------3-------------------------3-------------------------|-------------------------------------|

E|-----17--15------14---------|---------------------------------------------------------------------|
B|-14--------------------17p14|--15p14--14—-15—-15p14-------------17------17p14-----17b19—19-17--14-|
G|----------------------------|--14-----14--14---------16p14----------14----------------------------|
D|-------------14-----14------|---------16--16----------------14------------------------------------|
A|----------------------------|--------------------------------------------------0------------------|
E|----------------------------|---------------------------------------------------------------------|

E|-----------------------------------------------------| |-----------------------------------------|
B|----------------14--14--15--14--15--14--14------x----| |--14--14--15--14--15--14--14-------------|
G|-16b17-16--14---14--14--14--14--14--14--14--14--x----| |--14--14--14--14--14--14--14--14--14-----| 
D|----------------14—-14--16--14--16--14--14--14--x----| |--14—-14--16--14--16--14--14--16--14-----|x3
A|-----------------------------------------------------| |-----------------------------------------|
E|-----------------------------------------------------| |-----------------------------------------|
video
Hide picture