Farhat Guitar
Online Private Lessons – Contact Me
Prof. Marcos Farhat
+(54 911) 6577-1480

Lynyrd Skynyrd| Sweet Home Alabama
 Estilo:     
 e|----------------------------------------------------------|
 B|-----3-----3------3-------------------3-----3-----3-----3-|
 G|-----2-----0------0-------0-0---------2-----0-----0-----0-|
 D|-0-0--------------------0---------0-0---------------------|
 A|-------3-3----------0h2-------0h2-------3-3---------------|
 E|--------------3-3-----------------------------3-3---3-3---|
 e|--------------------------------------------------------------------|
 B|-----3-----3------3-------------------3-----3-----3-----------------|
 G|-----2-----0------0-------0-0---------2-----0-----0-------0---------|
 D|-0-0--------------------0---------0-0-------------------0---2p0---0-|
 A|-------3-3----------0h2-------0h2-------3-3---------0h2---------2---|
 E|--------------3-3-----------------------------3-3-------------------|
video
Hide picture