Farhat Guitar
Online Private Lessons – Contact Me
Prof. Marcos Farhat
+(54 911) 6577-1480

Metallica| Seek and Destroy
 Estilo:  Heavy Metal    
E|--------------------------|--------------------------|-------------------------|--------------------------|
B|--------------------------|--------------------------|-------------------------|--------------------------|
G|--------------------------|--5-----------------------|--4----------------------|--------------------------|
D|--5--7-----7--------7-----|--5--------7--------7-----|--4--------7--------7\---|-----------3--2--0--------|
A|--0--0--0-----0--0-----0--|-----0--0-----0--0-----0--|-----0--0-----0--0-------|--3--2--0-----------3--0--|
E|--------------------------|--------------------------|-------------------------|--------------------------|

E||--------------------------|--------------------------|-------------------------|--------------------------||
B||--------------------------|--------------------------|-------------------------|--------------------------||
G||--------------------------|--5-----------------------|--4----------------------|--------------------------||
D||--5--------7--------7-----|--5--------7--------7-----|--4--------7--------7\---|-----------3--2--0--------||
A||-----0--0-----0--0-----0--|-----0--0-----0--0-----0--|-----0--0-----0--0-------|--3--2--0-----------3--0--||
E||--------------------------|--------------------------|-------------------------|--------------------------|| X3
video
Hide picture