Farhat Guitar
Online Private Lessons – Contact Me
Prof. Marcos Farhat
+(54 911) 6577-1480

Metallica| Seek and Destroy
 Estilo:  Heavy Metal    
E||---------------------------------|---------------------------|----------------------------|-------------------------||
B||---------------------------------|---------------------------|----------------------------|-------------------------||
G||---------------------------------|---------------------------|----------------------------|-------------------------||
D||-12--11--------11--10--------10--|--9--------------------12--|--11--------11--7--------7--|--9----------------------||
A||-10--9---------9---8---------8---|--7--------------------10--|--9---------9---5--------5--|--7----------------------||
E||---------0--0----------0--0------|-----0--0--0--0--0--0------|------0--0---------0--0-----|-----0--0--0--0--0--0----|| x3
E|---------------------------------|---------------------------|----------------------------|-------------------------|
B|---------------------------------|---------------------------|----------------------------|-------------------------|
G|---------------------------------|---------------------------|----------------------------|-------------------------|
D|-12--11--------11--10--------10--|--9--------------------12--|--11--------11--7--------7--|--9----------------------|
A|-10--9---------9---8---------8---|--7--------------------10--|--9---------9---5--------5--|--7-----------------7\---|
E|---------0--0----------0--0------|-----0--0--0--0--0--0------|------0--0---------0--0-----|-----0--0--0--0--0-------|
E||--------------------------|--------------------------||    |--------------------------|--------------------------------|
B||--------------------------|--------------------------||    |--------------------------|--------------------------------|
G||--------------------------|--------------------------||    |--------------------------|--------------------------------|
D||--------------------------|--------------------------||    |--------------------------|--4-----------------7/-5--------|
A||--------2--------5--------|--4--------5--------7/-5--||    |--------2--------5--------|--4-----------------7/-5--------|
E||--0--0--0--0--0--3--0--0--|--2--0--0--3--0--0--5/-3--|| x7 |--0--0--0--0--0--3--0--0--|--2--0--0--0--0--0--5/-3--0--0--|
E|-------------------------||    |-----------------------||
B|-------------------------||    |-----------------------||
G|--9--7-----7-------------||    |--------------12-------||
D|--------9-----9--8--7\5--||    |--------------12-------||
A|-------------------------||    |-----------------------||
E|-------------------------|| X3 |--0--0--0--0-----------||
video
Hide picture