Farhat Guitar
Online Private Lessons – Contact Me
Prof. Marcos Farhat
+(54 911) 6577-1480

Black Sabbath| Iron Man
 Estilo:  Hard Rock    
E|------------------------------|
B|------------------------------|
G|------------------------------|
D|--11-9------------------------|
A|-------11-10-9-7--------------|
E|-----------------7-7h9-9------|X2

E|-------------------9------------------------------|----------9-------------------------|--------------|
B|--------------9------12b9----9--------------------|-------9----12p9------9---12p9----9-|--12p9------9-|
G|---------11--11b13--------11-11b13-9-9b-----------|-9-11-11b--------11p9----------11---|-------11p9---|
D|-9h11-11--------------------------------11-9-9h11-|------------------------------------|--------------|
A|--------------------------------------------------|------------------------------------|--------------|
E|--------------------------------------------------|------------------------------------|--------------|

E|----------------------------------------------|------------------------------------------------------------|
B|----------------------------------------------|------------------------------------------------------------|
G|----------------------------------------------|-----------------------------------9------------9-9---------|
D|-11-9------------------11-9-------------------|--------------------------9-9-9h11---11-11p9--------11p9----|
A|-----11-10-9-7--------------11-10-9-7---------|-----7-7h9-9p7---7h9-9/11--------------------11----------11-|
E|---------------7-7h9-9----------------7-7h9-9-|-7h9-----------9--------------------------------------------|

E|----------------------------9----------------------------------|
B|-12b14--12b14--12h9-------9---12p9-----------------------------|
G|--------------------11b13----------11-11p9----9--9-------------|
D|-------------------------------------------11--------11h9------|
A|----------------------------------------------------------11---|
E|---------------------------------------------------------------|

E|----------------------------------------------------------|-----------------------------|
B|----------------------------------------------------------|-----------------------------|
G|------9-9---------------9---------------------------------|-----------------------------|
D|-9h11-----11p9-----9h11---9-9h11-9h11-9h11-9h11-9h11-11---|-9h11-9h11-9h11-9h11-9h11-11-|
A|---------------11h----------------------------------------|-----------------------------|
E|----------------------------------------------------------|-----------------------------|

E|------------------------------|
B|------------------------------|
G|------------------------------|
D|--11-9------------------------|
A|-------11-10-9-7--------------|
E|-----------------7-7h9-9------|X2

video
Hide picture