Farhat Guitar
Online Private Lessons – Contact Me
Prof. Marcos Farhat
+(54 911) 6577-1480

Metallica| One
 Estilo:  Heavy Metal    
E||-------------------------------|------------------------------|--------------------------------|------------------------------|
B||--8--8--8--7br-----10--10--10--|--8br---------12--12--12--10--|--12--10--8--10----10--8--7--8--|--8--7--5--7----7--5--3--5----|
G||----------------7--------------|---------9--------------------|--------------------------------|------------------------------|
D||-------------------------------|------------------------------|--------------------------------|------------------------------|
A||-------------------------------|------------------------------|--------------------------------|------------------------------|
E||-------------------------------|------------------------------|--------------------------------|------------------------------|

E||-------------------------------|------------------------------|--------------------------------|----------------------------------|
B||--8--8--8--7br-----10--10--10--|--8br---------12--12--12--10--|--12--10--8--10----10--8--7--8--|--13--12--10--12----12--10--8--10-|
G||----------------7--------------|---------9--------------------|--------------------------------|----------------------------------|
D||-------------------------------|------------------------------|--------------------------------|----------------------------------|
A||-------------------------------|------------------------------|--------------------------------|----------------------------------|
E||-------------------------------|------------------------------|--------------------------------|----------------------------------|
E||-------------------------------|------------------------------|--------------------------------|------------------------------|
B||--8--8--8--7br-----10--10--10--|--8br---------12--12--12--10--|--12--10--8--10----10--8--7--8--|--8--7--5--7----7--5--3--5----|
G||----------------7--------------|---------9--------------------|--------------------------------|------------------------------|
D||-------------------------------|------------------------------|--------------------------------|------------------------------|
A||-------------------------------|------------------------------|--------------------------------|------------------------------|
E||-------------------------------|------------------------------|--------------------------------|------------------------------|x2

E||------------------------------|------------------------------|
B||--5--3--2--3----3--2--0--2----|--2--0-----0----0-------------|
G||------------------------------|--------2----------2--0--2----|
D||------------------------------|------------------------------|
A||------------------------------|------------------------------|
E||------------------------------|------------------------------|
video
Hide picture