Farhat Guitar
Online Private Lessons – Contact Me
Prof. Marcos Farhat
+(54 911) 6577-1480

The Eagles| Hotel California
 Estilo:     
E|--7------------7-|-----|----------9--------|-----------7------------------|-----7---7--------7-|----7---7------7-|
B|--7--------7-----|-----|------7-------7----|--------10----10-----10------7|-----------7--------|----------8------|
G|--7----7-----7---|-7--9|----9---9---9------|---9---------------9------9---|-------7-----7------|------7-------7--|
D|--9------9-------|-----|--8--------------8-|-7----7----------7------------|----------------9---|-9----------9----|
A|--9--9-----------|-----|-------------------|------------------------7-----|--11----------------|-10--------------|
E|--7--------------|-----|-------------------|------------------------------|--------------------|-----------------|
E|------------|---10-----10-----|----10----------|---7---7-------7--7---|--------|-----------------9--|
B|----8-------|------7--------7-|-------7------7-|---------8---8------8-|------7-|-----7---7----------|
G|-----------7|-----------------|------------7---|-----7----------------|---7----|---9-----------9----|
D|------7p9---|-7------7----7---|----------------|-----------9----------|---9----|------------8-------|
A|-10---------|-----------------|--9-------------|-7--------------------|--------|-9-----9------------|
E|------------|-----------------|---------10-----|----------------------|-7------|--------------------|
video
Hide picture