Farhat Guitar
Online Private Lessons – Contact Me
Prof. Marcos Farhat
+(54 911) 6577-1480

Metallica| One
 Estilo:  Heavy Metal    
E|--------------------------------------------------|
B|--------------------------------------------------|
G|--------------------------------------------------|
D|--------------------2-----------------------2-----|
A|--------------------2-----------------------2-----|
E|--0--0--0--0--0--0--0-----0--0--0--0--0--0--0-----|x2

E|-------------------------------------------------|
B|-------------------------------------------------|
G|-------------------------------------------------|
D|--------------------2----------------------2-----|
A|--------------------2----------------------2-----|
E|--0--0--0--0--0--0--0----0--0--0--0--0--0--0-----| 

E|----------------------------------------------------|
B|----------------------------------------------------|
G|----------------------------------------------------|
D|----------------------2----------------------2--3---|
A|----------------------2----------------------2--3---|
E|---0---0--0--0--0--0--0----0--0--0--0--0--0---------|x5
video
Hide picture