Farhat Guitar
Online Private Lessons – Contact Me
Prof. Marcos Farhat
+(54 911) 6577-1480

John Williams| Cavatina
 Estilo:  Clásico    
E|----------2-------|----------2--------|---------------------|------------------|----------3-------|
B|-------2-----2----|-------3-----------|-------------3-------|------------------|-------4-----4----|
G|------------------|-------------------|----------3-----3----|------------------|----3-----------3-|
D|----2-----------2-|----4---------2--4-|-------3-----------3-|-3-----1-----1--3-|-5----------------|
A|-1----------------|-2-----------------|-5-------------------|----1-----1-------|-4----------------|
E|------------------|----------2--------|----5----------------|-2-----2----------|------------------|


E|-------------------|----------0-------|---------------------|------------------|--------------------|
B|-------------------|-------0-----0----|----------5--------2-|-0----------------|------------------2-|
G|-------------------|------------------|-------4-----4-------|----------2-------|----------2---------|
D|--8-----6-----6--8-|-9--------------2-|----2-----------2----|-------1-----1----|-------1-----1------|
A|-----6-----6-------|----7-------------|---------------------|----2-----------2-|----2-----------2---|
E|--7----------------|-4----------------|-4-------------------|-2----------------|-2------------------|


E|------------------|-------------------|----------0-------|------------------------|-------------------|----------0--4--5--|
B|-0----------------|-------------------|-------0-----0----|----------4-----0-------|-------------------|-0-----0-----------|
G|----------1-------|----6--------------|----2-----------2-|----2--------------2----|-2-----1---------1-|----1--------------|
D|-------0-----0----|-------7---6--4--2-|-2----------------|-------4-----1--------2-|----4-----1---2----|-------------------|
A|----2-----------2-|-0-----------------|------------------|-2----------------------|-------------------|-------------------|
E|-0----------------|-------------------|-2----------------|------------------------|-0-----------------|-------------------|
video
Hide picture