Farhat Guitar
Online Private Lessons – Contact Me
Prof. Marcos Farhat
+(54 911) 6577-1480

Red Hot Chilli Peppers| Can´t Stop
 Estilo:     
E|--------------------------|--------------------------|------------------------|-------------------------|
B|--------------------------|--------------------------|------------------------|-------------------------|
G|-----7-9-------7-x-9------|---7-9-------7-x-9--------|--7-9--------7-9--------|--7-9--------7-9---------|x4
D|--------------------------|-0-0---0-0-0----------0-0-|-------------x----------|-------------x-----------|
A|-7-7-----7-7-7-------7-7-7|--------------------0-----|-------------x----------|-------------x-----------|
E|--------------------------|--------------------------|7------7-7-7-7----7-7-7-|-8-----8-8-8-8-----8-8-8-|
E|--------------------------|-------------------------|-----------------------|-7-7-7-7-7-7-7-7-7-7-7-7-7-7-7-|
B|--------------------------|-------------------------|-----------------------|-8-8-8-8-8-8-8-8-8-8-8-8-8-8-8-|
G|-----7-9-------7-x-9------|---7-9-------7-x-9-------|---7-9-------7-9-9-9-9-|-9-9-9-9-9-9-9-9-9-9-9-9-9-9-9-|
D|--------------------------|-0-0---0-0-0---------0-0-|-------------x---------|---------x-x-x-x-x-x-x-x-x-x-x-|
A|-7-7-----7-7-7-------7-7-7|-------------------0-----|-------------x---------|---------x-x-x-x-x-x-x-x-x-x-x-|
E|--------------------------|-------------------------|-7-----7-7-7-7---7-7-7-|---------8-8-8-8-8-8-8-8-8-8-8-|
video
Hide picture