Farhat Guitar
Online Private Lessons – Contact Me
Prof. Marcos Farhat
+(54 911) 6577-1480

Green Day| Wake Me Up When September Ends
 Estilo:     

E|---------|   |---------|---------|---------|----------|--------------|----------------| ||----------------||
B|---3---3-|   |---3---3-|---3---3-|---3---3-|---3---3--|-----5------5-|------4------4--| ||-------3-----3--||
G|--0---0--|   |--0---0--|--0---0--|--0---0--|--0---0-0-|--5--5--5---5-|-5-5--5--5---5--| ||-0--0--0--0---0-||
D|-5---5---|   |-5---5---|-4---4---|-2---2---|-0---0----|--------------|----------------| ||----------------||
A|---------|   |---------|---------|---------|----------|-3--------3---|--3--------3----| ||----------------||
E|---------|x4 |---------|---------|---------|----------|--------------|----------------| ||--3---------3---||X2
E|-------------------|---------------------|----------------------------|-------------|--------------------|
B|----3---3---3---3--|---3----3---3----3---|------5----5--------4-----4-|------3----3-|-------3--------3-0-|
G|-0-0---0---0---0-0-|--0----0---0----0--0-|---5--5--5-5--5--5--5--5--5-|-0----0-0--0-|-0--0--0--0---0-0-0-|
D|--5---5---4---4----|-2---2----0----0-----|----------------------------|-------------|--------------------|
A|-------------------|---------------------|-3--------3----3--------3---|-------------|--------------------|
E|-------------------|---------------------|----------------------------|---3-3---3---|--3---------2-------|
video
Hide picture