Farhat Guitar
Online Private Lessons – Contact Me
Prof. Marcos Farhat
+(54 911) 6577-1480

Mana| En el Muelle de San Blas
 Estilo:     
E|-------------------2----|-------------------2----|-------3-----2-----0----|-------3-----2-----0----|
B|-------3-----2----------|-------3-----2----------|----------------------3-|----------------------3-|
G|----4-----4-----4-----4-|----4-----4-----4-----4-|----0-----0-----0-------|----0-----0-----0-------|
D|------------------------|------------------------|------------------------|------------------------|
A|-2----------------------|-2----------------------|------------------------|------------------------|
E|------------------------|------------------------|-3----------------------|-3----------------------|

E-------------------2----|-------------------2----|-------------------------|-3--3--3--3--3--3--3--3--3--3--3—-3--|
B-------3-----2----------|-------3-----2----------|-------2-----3-----3-----|-3--3--3--3--3--3--3--3--3--3--3—-3--|
G----4-----4-----4-----4-|----4-----4-----4-----4-|----2-----2-----2-----2--|-2—-2—-2—-2--2—-2—-2—-2--2—-2—-2—-2--|
D------------------------|------------------------|-------------------------|-2—-2—-2—-2--2—-2—-2—-2--2—-2—-2—-2--|
A-2----------------------|-2----------------------|-0-----------------------|-------------------------------------|
E------------------------|------------------------|-------------------------|-------------------------------------|
video
Hide picture