Farhat Guitar
Online Private Lessons – Contact Me
Prof. Marcos Farhat
+(54 911) 6577-1480

Iron Maiden| Afraid to Shoot Strangers
 Estilo:  Heavy Metal    
E|------------9-|-10-9-----------------|----------|-----------------------|   |----|
B|----9-10-12---|------12-10-9-10---12-|-10h9-----|-------10-10-10-10h9---|   |----|
G|-11-----------|----------------------|------9-9-|---------------------9-|   |-11-|
D|--------------|----------------------|----------|-11-12-----------------|   |----|
A|--------------|----------------------|----------|-----------------------|   |----|
E|--------------|----------------------|----------|-----------------------|x4 |----|
E|-----------------------------------|-----------------------------------|
B|-10-10-10-10--10-12-10--9--10----9-|-9-9-9-9---------------7—9p7-------|
G|------------------------------11---|---------9-11-11-11--9-------9b11--|
D|-----------------------------------|-----------------------------------|
A|-----------------------------------|-----------------------------------|
E|-----------------------------------|-----------------------------------|
video
Hide picture