Farhat Guitar
Online Private Lessons – Contact Me
Prof. Marcos Farhat
+(54 911) 6577-1480

The Doors| Roadhouse Blues
 Estilo:  Blues    
E|-----------------------------------------------|------------------------------------------------------------------------|
B|-----------------------------------------------|------------------------------------------------------------------------|
G|-----------------------------------------------|------------------------------------------------------------------------|
D|-----------------------------------------------|------------------------------------------------------------------------|
A|--------------------------------------------5s7|-------------------------------------------5h6h7------------------------|
E|-0--0--0--0--0--0—-5h6h7--0--0--0--0--0--0-----|-0--0--0--0--0--0—-5h6h7--0--0--0--0--0--0-------0--0--0--0--0--0—-2b3--|

E|--------------------------------------------|-------------------------------------------|-----------------------------------------|
B|--------------------------------------------|-------------------------------------------|-----------------------------------------|
G|--------------------------------------------|-------------------------------------------|-----------------------------------------|
D|--------------------------------------------|-------------------------------------------|-----------------------------------------|
A|------------------5s7-----------------------|------------------5s7------------------5s7-|----------------5s7----------------------|
E|-0--0--0--0--0--0-----0--0--0--0--0--0--5s7-|-0--0--0--0--0--0—----0--0--0--0--0--0-----|0--0--0--0--0--0----0--0--0--0--0--0—5s7-|

E|--------------------------------------------|------------------------------------------------------------------------------------|
B|--------------------------------------------|------------------------------------------------------------------------------------|
G|--------------------------------------------|---------------------------------------------0--------------------------------------|
D|--------------------------------------------|---------------------------------------0h1h2---2p0-2p0---0--------------------------|
A|-------------------5s7-------------------5s7|------------------5s7----------------------------------2---2------------------0h1h2-|
E|-0--0--0--0--0--0—-----0--0--0--0--0--0-----|-0--0--0--0--0--0-----0--0--0--0--0--0-----------------------0--0--0--0--0--0—------|

E|------------------------------------------------------------|--------------------------------------------------|------------|
B|------------------------------------------------------------|--------------------------------------------------|------------|
G|-------------------------------------------------0----------|------------------------------------------------0-|------------|
D|------------------------------------------0h1h2--0—-2p0—2h0-|-0---0--0---0---0---2—-2--0--0-—-0----------------|-2-0—2-0--0-|
A|--------------------5s7-------------------------------------|---2------2---2---2------------2----------0h1h2---|---------2--|
E|--0--0--0--0--0--0—------0--0--0--0--0--0-------------------|-----------------------------------3v-0-0-—-------|------------|
video
Hide picture