Farhat Guitar
Online Private Lessons – Contact Me
Prof. Marcos Farhat
+(54 911) 6577-1480

Pink Floyd| Wish You Were Here
 Estilo:     
 E|---------------------------------|----------------------------|-------------------|
 B|---------------------------------|-10b12—-10—-8-------------8-|-------------------|
 G|---7-----7--9--------7-----7—-9v-|---------------7s9—-9b11----|-7-----7--9-----7--|
 D|------9--------9--9-----9--------|----------------------------|----9--------9-----|
 A|---------------------------------|----------------------------|-------------------|
 E|---------------------------------|----------------------------|-------------------|
 E|--------------------------10—-pb12r10---------|-----------------------------------|
 B|--8-----8v--10--8—-10b12---------------10b12v—|-10b12—-12r10p8-----10b12—-10b12v--|
 G|-----9----------------------------------------|-----------------9-----------------|
 D|----------------------------------------------|-----------------------------------|
 A|----------------------------------------------|-----------------------------------|
 E|----------------------------------------------|-----------------------------------|
E|---------10--10---------10--10---------10--10--------|--------12----------|--------10--|
B|--10b12----------10b12----------10b12========pb12r10—|-12b14====pb12r10p8-|-10b12------|
G|-----------------------------------------------------|--------------------|------------|
D|-----------------------------------------------------|--------------------|------------|
A|-----------------------------------------------------|--------------------|------------|
E|-----------------------------------------------------|--------------------|------------|
E|---------12---------10----------|---------------------------------------------|
B|—-10b12------10b12====pb12r10p8—|-8p7—-8p7—-8v--8p7--8—-10v—-10p8p7-----------|
G|--------------------------------|------------------------------------7v-------|
D|--------------------------------|----------------------------------------7s9--|
A|--------------------------------|---------------------------------------------|
E|--------------------------------|---------------------------------------------|
video
Hide picture