Farhat Guitar
Online Private Lessons – Contact Me
Prof. Marcos Farhat
+(54 911) 6577-1480

The Eagles| Hotel California
 Estilo:     
E|-10-----10-----10-----10-----10------|-9-----9-----9-----9s14v--9-----9---------9-----|-9-----9-----7----7-----7---7s12v-|
B|---12-----12-----12-----12------12---|--11----11-----11----------10----10--------10---|--10----10----9----9------9-------|
G|-----11-----11-----11-----11------11-|----11----11-----9------------9------9----------|-----9-----9----9----9------------|
D|-------------------------------------|------------------------------------------------|----------------------------------|
A|-------------------------------------|------------------------------------------------|----------------------------------|
E|-------------------------------------|------------------------------------------------|----------------------------------|

E|-7---7---7---7---7---5---5---5---5s10v-|-3-----3----3----3----3---6---6-----6-----6s9v--|
B|--8---8---8---8---8---7---7---7--------|---5----5----5----5----5---7---7------7---------|
G|---7---7---7---7---7---7---7-----------|----4----4----4-----4---4---6----6--------------|
D|---------------------------------------|------------------------------------------------|
A|---------------------------------------|------------------------------------------------|
E|---------------------------------------|------------------------------------------------|
video
Hide picture