Farhat Guitar
Online Private Lessons – Contact Me
Prof. Marcos Farhat
+(54 911) 6577-1480

Muse| Hysteria
 Estilo:     
e|-x-x-x-x-x-x-x-x-x-x-x-x-x-x-x-x-|
B|-x-x-x-x-x-x-x-x-x-x-x-x-x-x-x-x-|
G|-x-x-x-x-x-x-x-x-x-x-x-x-x-x-x-x-|
D|-x-x-x-x-x-x-x-x-x-x-x-x-x-x-x-x-|
A|-x-x-x-x-x-x-x-x-x-x-x-x-x-x-x-x-|
E|-x-x-x-x-x-x-x-x-x-x-x-x-x-x-x-x-|
e|---------------------------------------------------------------------------|
B|---------------------------------------------------------------------------|
G|-5-5-5-4-5-5-5-5-5-5-5-5-------------------------7-7-7-6-7-7-7-7-7-7-7-7-7-|
D|-5-5-5-4-5-5-5-5-5-5-5-5-5-5-5-4-5-5-5-5-5-5-5-5-7-7-7-6-7-7-7-7-7-7-7-7-7-|
A|-3-3-3-3-3-3-3-3-3-3-3-3-5-5-5-4-5-5-5-5-5-5-5-5-5-5-5-5-5-5-5-5-5-5-5-5-5-|
E|-------------------------3-3-3-3-3-3-3-3-3-3-3-3---------------------------|
e|---------------------------------------------------------------------------|
B|---------------------------------------------------------------------------|
G|---------------------------5-5-5-4-5-5-5-5-5-5-5-5-------------------------|
D|-7-7-7-6-7-7-7-7-7-7-7-7-7-5-5-5-4-5-5-5-5-5-5-5-5-5-5-5-4-5-5-5-5-5-5-5-5-|
A|-7-7-7-6-7-7-7-7-7-7-7-7-7-3-3-3-3-3-3-3-3-3-3-3-3-5-5-5-4-5-5-5-5-5-5-5-5-|
E|-5-5-5-5-5-5-5-5-5-5-5-5-5-------------------------3-3-3-3-3-3-3-3-3-3-3-3-|
e|-----------------------------------------------------------------|
B|-----------------------------------------------------------------|
G|-7-7-7-6-7-7-7-7-7-7-7-7-7---------------------------------------|
D|-7-7-7-6-7-7-7-7-7-7-7-7-7---------------------------------------|
A|-5-5-5-5-5-5-5-5-5-5-5-5-5------------------10----10-10----10-12-|
E|---------------------------0-0-10-0-10-12-0----12-------12-------|
video
Hide picture