Farhat Guitar
Online Private Lessons – Contact Me
Prof. Marcos Farhat
+(54 911) 6577-1480

Led Zeppelin| Stairway to Heaven
 Estilo:     
E|----------17---------------------------------|------------------------------|
B|-------20---20-------------------------------|------------------------------| 
G|-19b21---------19b21r19p17--19-17---17-19b21~|-14b17--pb17-14--12-14—12h14~-|
D|--------------------------19-----19----------|------------------------------|
A|---------------------------------------------|------------------------------| 
E|---------------------------------------------|------------------------------|
E|-------------------------------|----20p17----20p17----20p17----20p17----20p17----20b22-|
B|-----------------------5-------|-17-------17-------17-------17-------17-------17-------| 
G|-10b12--10-9-7-5-7-5--7-7-5----|-------------------------------------------------------|
D|----------------------------7~-|-------------------------------------------------------|
A|-------------------------------|-------------------------------------------------------| 
E|-------------------------------|-------------------------------------------------------|
video
Hide picture