Farhat Guitar
Online Private Lessons – Contact Me
Prof. Marcos Farhat
+(54 911) 6577-1480

Muse| Hysteria
 Estilo:     
e|-------------------------------------------------------------------------------|
B|-------------------------------------------------------------------------------|
G|-------------------------------------------------------------------------------|
D|-------------------------------------------------------------------------------|
A|-0-0-10-0-10-12-0-10-0-7-0-8-8-7-5-7------------------10--------10-10----10-12-|
E|-------------------------------------0-0-10-0-10-12-0----0-12-0-------12-------|
e|--------------------------------------------------------------------------|
B|--------------------------------------------------------------------------|
G|--------------------------------------------------------------------------|
D|-0-0-10-0-10-12-0-10-0-10-9-0-9-8-0-8-7-----------------------------------|
A|----------------------------------------0-10-0-10-12-0-10-0-7-0-8-8-7-5-7-|
E|--------------------------------------------------------------------------|
e|-------------------------------------------------------------------------------|
B|-------------------------------------------------------------------------------|
G|-------------------------------------------------------------------------------|
D|-------------------------------------------------------------------------------|
A|-0-0-10-0-10-12-0-10-0-7-0-8-8-7-5-7------------------10--------10-10----10-12-|
E|-------------------------------------0-0-10-0-10-12-0----0-12-0-------12-------|
e|----------------------------------------|
B|----------------------------------------|
G|----------------------------------------|
D|-0-0-10-0-10-12-0-10-0-10-9-0-9-8-0-8-7-|
A|----------------------------------------|
E|----------------------------------------|
video
Hide picture