Farhat Guitar
Online Private Lessons – Contact Me
Prof. Marcos Farhat
+(54 911) 6577-1480

U2______| Sunday Bloody Sunday
 Style:     
Eb|------------------------------------------------------------|  
Bb|-7-7-7-7-7--x-x-x--7-7-7--x-x-x--12-12-12--x-x-x--12-12-12--|  
Gb|-7-7-7-7-7--x-x-x--7-7-7--x-x-x—-12-12-12--x-x-x--12-12-12--|  
Db|-9-9-9-9-9--x-x-x--7-7-7--x-x-x--12-12-12--x-x-x--12-12-12--| A 
Ab|-9-9-9-9-9--x-x-x—-5-5-5—-x-x-x--10-10-10--x-x-x--10-10-10--|
Eb|-7-7-7-7-7--x-x-x-------------------------------------------|

Eb|------------------------------------------------------------------|    |----|
Bb|-x-x-x--7-7-7--x-x-x--7-7-7--x-x-x--12-12-12--x-x--12/14-14-14-12-|    |-7--|
Gb|-x-x-x--7-7-7--x-x-x--7-7-7--x-x-x--12-12-12--x-x--12/14-14-14-12-|    |-7--|
Db|-x-x-x--9-9-9--x-x-x--7-7-7--x-x-x--12-12-12--x-x--12/14-14-14-12-| B  |-9--| C
Ab|-x-x-x--9-9-9--x-x-x--5-5-5--x-x-x--10-10-10--x-x--10/12-12-12-10-|    |-9--|
Eb|-x-x-x--7-7-7-----------------------------------------------------|    |-7--|

Ax3 B      Ax2 B      Ax2 B  C
video
Hide picture