Farhat Guitar
Online Private Lessons – Contact Me
Prof. Marcos Farhat
+(54 911) 6577-1480

Pink Floyd| Comfortably Numb
 Style:     
E|-s17-17—17s19v-19-21—-21b22-—-pb21(1/4)b22---pb21(1/4)--pb22—--pb22v---pb22vr21-—-19h21p19v-—-19s—-s12—-12-—12s14v-|
B|-------------------------------------------------------------------------------------------------------------------|
G|-------------------------------------------------------------------------------------------------------------------|
D|-------------------------------------------------------------------------------------------------------------------|
A|-------------------------------------------------------------------------------------------------------------------|
E|-------------------------------------------------------------------------------------------------------------------|
E|---------------------------------------------------------------|----------------------------10----12—-12h14p12s10—-12-------|
B|--17b19-17h15------17v---15b(1/4)—-17—-17b18r17p15------10—-12-|--------------12v—-12b(1/4)----12----------------------12v--|
G|---------------16----------------------------------16v---------|-9b(1/4)--7-------------------------------------------------|
D|---------------------------------------------------------------|------------9-----------------------------------------------|
A|---------------------------------------------------------------|------------------------------------------------------------|
E|---------------------------------------------------------------|------------------------------------------------------------|
E|----------------------------------------------------------------|------------------------------------------------------------|
B|--12b15--12--10------------------------------------------7------|--7b(1/4)--x--x-----7b(1/4)—-x----7b(1/4)----------7b(1/4)--|
G|-----------------9p0--9p7-----7--9p7------------------x--7------|--7b(1/4)--x—-x-----7b(1/4)—-x----7b(1/4)—7h9p7----7b(1/4)--|
D|---------------------------9----------9--7------------x-----9---|-----------------9--------------9---------------9-----------|
A|--------------------------------------------8-—7--5v------------|------------------------------------------------------------|
E|----------------------------------------------------------------|------------------------------------------------------------|
E|--x--7--x--x--7--x--x--7--x--x--7--x--x--7--x--x--7--x--x--7--|
B|--x--7--x--x--7--x--x--7--x--x--7--x--x--7--x--x--7--x--x--7--|
G|--x--7--x--x--7--x--x--7--x--x--7--x--x--7--x--x--7--x--x--7--|
D|--------------------------------------------------------------|
A|--------------------------------------------------------------|
E|--------------------------------------------------------------|
video
Hide picture