Farhat Guitar
Online Private Lessons – Contact Me
Prof. Marcos Farhat
+(54 911) 6577-1480

Led Zeppelin| Rock and Roll
 Style:     
E|------------------|---------------| |------------------|---------------| |-----------------|--------------|
B|------------------|---------------| |------------------|---------------| |-----------------|--------------|
G|------------------|---------------| |-2-2---2-5-2-4----|-2-4-2-2-2-4-2-| |-----------------|--------------|
D|-2-2---2-5-2-4----|-2-4-2-2-2-4-2-| |-0-0-4-0-0-0-0-3b-|-0-0-0-0-0-0-0-| |2-2---2-5-2-4----|2-4-2-2-2-4-2-|
A|-0-0-4-0-0-0-0-3b-|-0-0-0-0-0-0-0-| |------------------|---------------| |0-0-4-0-0-0-0-3b-|0-0-0-0-0-0-0-|
E|------------------|---------------|x2|------------------|---------------|x2 |-----------------|--------------|x2
E|------------------|----------------| |------------------|----------------|
B|------------------|----------------| |------------------|----------------|
G|------------------|----------------| |------------------|----------------|
D|------------------|----------------| |-2-2---2-5-2-4----|--2-4-2-2-2-4-2-|
A|-2-2---2-5-2-4----|--2-4-2-2-2-4-2-| |-0-0-4-0-0-0-0-3b-|--0-0-0-0-0-0-0-|
E|-0-0-4-0-0-0-0-3b-|--0-0-0-0-0-0-0-| |------------------|----------------|
video
Hide picture