Farhat Guitar
Online Private Lessons – Contact Me
Prof. Marcos Farhat
+(54 911) 6577-1480

Pink Floyd| Shine on you crazy diamond
 Style:  Rock    
e|--------------------------------------------------------------------------------------------------|
B|--18b(20)v-18b(20)-(20)v-----11-13-13b(15)v-13b(15)-(15)v--(15)r13p11-13b(15)-(15)v-13b(15)-(15)v-|
G|--------------------------12----------------------------------------------------------------------|
D|--------------------------------------------------------------------------------------------------|
A|--------------------------------------------------------------------------------------------------|
E|--------------------------------------------------------------------------------------------------|

e|----------------------------------------------------------------------------------------|
B|--10h11p10----10------------------------------------------------------------------------|
G|-----------12----10-10----10v--12b(15)-12b(15)v-(15)r12-10-12-12vb(15)--12b(15)v-10h12v-|
D|-----------------------12---------------------------------------------------------------|
A|----------------------------------------------------------------------------------------|
E|----------------------------------------------------------------------------------------|

e|-------------------------------15-18v-18b(20)-18vs-------------------------------------------|
B|----------18-18b(20)v--18b(20)----------------------(15)r13p11v------------------------------|
G|--17b(19)----------------------------------------------------------10-12v-12b(15)-(15)-(15)v-|
D|----------------------------------------------------------------12---------------------------|
A|---------------------------------------------------------------------------------------------|
E|---------------------------------------------------------------------------------------------|

e|-----------------------------------------------------15----------------------------------|
B)-------------------------------------------18-18b(20)---18b(20)v--18b(20)r18p15----------|
G|--10h12v—(19)r17p15-17b(19)-(19)v--17b(19)--------------------------------------17b(19)v-|
D|-----------------------------------------------------------------------------------------|
A|-----------------------------------------------------------------------------------------|
E|-----------------------------------------------------------------------------------------|

e|---------------------------------------------------------------------------|
B|---------------------------------------------------------------18----------|
G|--(19)r17p15-17-17vs-----15v--(19)r17p15-17b(19)-(19)v-17b(19)----17b(19)v-|
D|---------------------s17---------------------------------------------------|
A|---------------------------------------------------------------------------|
E|---------------------------------------------------------------------------|

e|----------15-18v----18-20b(22)v-18b(20)r18-17----15v-|
B|--18b(20)--------15---------------------------18-----|
G|-----------------------------------------------------|
D|-----------------------------------------------------|
A|-----------------------------------------------------|
E|-----------------------------------------------------|
video
Hide picture