Farhat Guitar
Online Private Lessons – Contact Me
Prof. Marcos Farhat
+(54 911) 6577-1480

Deep Purple| Highway Star
 Style:  Hard Rock, Heavy Metal    
E|--------------|------------------|--------12b14-12-10--------------| 
B|--------13b15-|--------13b15-----|-----10-------------13-----------|   
G|-----10-------|-----10-------10\-|--10-------------------10----10\-| 
D|--12----------|--12--------------|--------------------------12-----| 
A|--------------|------------------|---------------------------------| 
E|--------------|------------------|---------------------------------|X2
E|----------------------|---------------------------|----------------------|-------------------| |------|
B|-8b10-8b10--8b10-8b10-|-8b10-8-7-5----------------|----------------------|-------------------| |-8b10-|
G|----------------------|-----------5---7--5b6------|-----5-----5------5---|-5-----5------5----| |------| 
D|----------------------|-------------7-------7-7-7-|-5-7---7-5---7--5---7-|---7-5---7--5---7--| |------| 
A|----------------------|---------------------------|----------------------|-------------------| |------| 
E|----------------------|---------------------------|----------------------|-------------------| |------|X8
video
Hide picture