Farhat Guitar
Online Private Lessons – Contact Me
Prof. Marcos Farhat
+(54 911) 6577-1480

Metallica| One
 Style:  Heavy Metal    
E||----------------------------------|------------------------------|
B||----------------------------------|------------------------------|
G||----------------------------------|------------------------------|
D||--------------------2-------------|-----------2-------------3----|
A||--------------------2-------------|-----------2-------------3----|
E||--0--0--0--0--0--0-------0--0--0--|--0--0--0-------0--0--0-------|x4

|---------------------------------|------------------------------|---------------------------------|-------------------------------|
|---------------------------------|------------------------------|---------------------------------|-------------------------------|
|---------------------------------|------------------------------|---------------------------------|-------------------------------|
|---------------------------------|------------------------------|---------------------------------|-------------------------------|
|---------------------------------|------------------------------|---------------------------------|-------------------------------|
|--0--0--0--0--0--0--0---0--0--0--|--0--0--0--0---0--0--0--0-----|--0--0--0--0--0--0--0---0--0--0--|-0--0--0--0---0--0--0--0--0--0-|
video
Hide picture