Farhat Guitar
Online Private Lessons – Contact Me
Prof. Marcos Farhat
+(54 911) 6577-1480

Extreme| More Than Words
 Style:  Hard Rock    
E|--3-----3---|--3-----3---|--0---0-|-0-----|----2---|---0-----0-----|--0------|---0---------|2-2-x-2---2---|
B|--3-x-3-3-x-|3-3-x-3-3-x-|3-3-3-3-|-0-0-x-|3---3-x-|-1-1-x---1-1-x-|1-1-x-1-1|-1-1-x---1-1-|3-3-x-3-x-3-x-|
G|--0-x-0-0-x-|0-0-x-0-0-x-|2-2-2-2-|-0-0-x-|------x-|-0-0-x---0-0-x-|0-0-x-0-0|-0-0-x---0-0-|2-2-x-2-x-2-x-|
D|----x-0---x-|0---x-0---x-|0---0---|-----x-|--4---x-|-2---x-----2-x-|2---x-2-0|-2---x---2-2-|0---x-0-x---x-|
A|------2-----|------2-----|--------|---2---|2-------|-3-----3-3-3---|3-----3-2|-0-----0-0-0-|--------------|
E|3-----------|3-----------|2---2---|-0-----|--------|---------------|---------|-------------|--------------|

E|--3-----3---|--3-----3---|--0---0-|-0-----|2-------|---0-----0-----|--0------|---0-----3-0-|-2-|
B|3-3-x-3-3-x-|3-3-x-3-3-x-|3-3-3-3-|-0-0-x-|3--3--x-|-1-1-x---1-1-x-|1-1-x-1-1|-1-1-x---1-1-|-1-|
G|0-0-x-0-0-x-|0-0-x-0-0-x-|2-2-2-2-|-0-0-x-|4-----x-|-0-0-x---0-0-x-|0-0-x-0-0|-0-0-x---0-0-|-2-|
D|0---x-0---x-|0---x-0---x-|0---0---|-----x-|4-----x-|-2---x-----2-x-|2---x-2-0|-2---x-------|-0-|
A|------2-----|------2-----|--------|---2---|2-------|-3-----3-3-3---|3-----3-2|-0-----0-0-0-|---|
E|3-----------|3-----------|2---2---|-0-----|--------|---------------|---------|-------------|---|

E|---3-----3---|--3-----3-0---|--0-----3-0---|--0---2---3---|
B|---3-x-3-3-x-|3-3-x---3-3-x-|1-1-x-1-1-1-x-|1-1-x-3---3-x-|
G|---0-x-0-0-x-|0-0-x---0-0-x-|0-0-x-0-0-0-x-|0-0-x---2---x-|
D|-----x-----x-|----x-------x-|----x-------x-|----x-0-----x-| x2
A|-------2-----|3-----3-3-3---|0-----0-0-0---|3-------------|
E|-3-----------|--------------|--------------|--------------|
video
Hide picture