Farhat Guitar
Online Private Lessons – Contact Me
Prof. Marcos Farhat
+(54 911) 6577-1480

Nirvana| Come as you are
 Style:     
 D|------2---------------------------|
 A|------2---2-0-----2---2----2-0----|
 F|------4---4-0---2-2-2-2----2-0----|
 C|--4-------4-0---2-2-2-2----2-0----|
 G|--4-------4-0---0-0-0-0----0-0----|
 D|--2-------------------------------|x3
 D|------2--------------------------|
 A|------2---2-0-----2---2---2---2--|
 F|------4---4-0---2-2-2-2-2-2-2-2--|
 C|--4-------4-0---2-2-2-2-2-2-2-2--|
 G|--4-------4-0---0-0-0-0-0-0-0-0--|
 D|--2------------------------------|
video
Hide picture