Farhat Guitar
Online Private Lessons – Contact Me
Prof. Marcos Farhat
+(54 911) 6577-1480

Soda Stereo| En la Ciudad de la Furia
 Style:  Pop    
E|------------------------------|----------------------------|
B|---3---3---3----3---3---3---3-|----3---3---3-3---3—--3---3-| 
G|-----0---0--------0-------2---|------0---0-----0-------2---| 
D|------------------------------|----------------------------| 
A|----------------------0-------|--------------------0-------| 
E|-0-----------3----------------|--3-------------------------|
  X2                             X2
E|---------0----------------------|----------2-------------------| 
B|---3---3-----3----3---3---3---3-|----3---3-----3-3---3—--3---3-| 
G|-----0-----0--------0-------2---|------0-----0-----0-------2---| 
D|--------------------------------|------------------------------| 
A|------------------------0-------|----------------------0-------| 
E|-0-------------3----------------|--3---------------------------|
video
Hide picture