Farhat Guitar
Online Private Lessons – Contact Me
Prof. Marcos Farhat
+(54 911) 6577-1480

Metallica| One
 Style:  Heavy Metal    
E|--------------------------------------------------|--------------------------------------------------|
B|--------------------------------------------------|--------------------------------------------------|
G|--------------------------------------------------|--------------------------------------------------|
D|--------------------2-----------------------2-----|--------------------2-----------------------2--3--|
A|--------------------2-----------------------2-----|--------------------2-----------------------2--3--|
E|--0--0--0--0--0--0--------0--0--0--0--0--0--------|--0--0--0--0--0--0--------0--0--0--0--0--0--------|x2
E|---------------------------------------------------|---------------------------------------------------|
B|---------------------------------------------------|---------------------------------------------------|
G|---------------------------------------------------|---------------------------------------------------|
D|---------------------------------------------------|---------------------------------------------------|
A|--------------------7~----------------------7s--8--|--------------------5~----------------------5s--8--|
E|--0--0--0--0--0--0--------0--0--0--0--0--0---------|--0--0--0--0--0--0--------0--0--0--0--0--0---------|
E|---------------------------------------------------|---------------------------------------------------|
B|---------------------------------------------------|---------------------------------------------------|
G|---------------------------------------------------|---------------------------------------------------|
D|---------------------------------------------------|---------------------------------------------------|
A|--------------------7~----------------------7s--8--|--------------------5~----------------------5------|
E|--0--0--0--0--0--0--------0--0--0--0--0--0---------|--0--0--0--0--0--0--------0--0--0--0--0--0------7--|
E|--------------------------------------------------|--------------------------------------------------|
B|--------------------------------------------------|--------------------------------------------------|
G|--------------------------------------------------|--------------------------------------------------|
D|--------------------2-----------------------2-----|--------------------2-----------------------2--3--|
A|--------------------2-----------------------2-----|--------------------2-----------------------2--3--|
E|--0--0--0--0--0--0--------0--0--0--0--0--0--------|--0--0--0--0--0--0--------0--0--0--0--0--0--------|x2
video
Hide picture