Farhat Guitar
Online Private Lessons – Contact Me
Prof. Marcos Farhat
+(54 911) 6577-1480

Extreme| More Than Words
 Style:  Hard Rock    
            T              T              T               T           T           T         T          T
 E|---2h3h5-17p5p3p2h3h5-|-15p5p3p2h3h5-|-17p5p3p2h3h5-|-15p5p3p2h3-|-14p5p3p2-|-15p5p3p2-|-14p5p3p2-|-12p5p3p2-|
 B|----------------------|--------------|--------------|------------|----------|----------|----------|----------|
 G|----------------------|--------------|--------------|------------|----------|----------|----------|----------|
 D|-0--------------------|--------------|--------------|------------|----------|----------|----------|----------|
 A|----------------------|--------------|--------------|------------|----------|----------|----------|----------|
 E|----------------------|--------------|--------------|------------|----------|----------|----------|----------|
    T            T           T       T        T       T       T       T
 E|-10p5p3p2h5-|-7p5p3p2h5-|-7p5p2-|-------|--------|-------|-------|------------------|
 B|------------|-----------|-------|-7p5p2-|--------|-------|-------|------------------|
 G|------------|-----------|-------|-------|--7h4p2-|-------|-7h4p2-|------------------|
 D|------------|-----------|-------|-------|--------|-7h4p2-|-------|-7h4p2p0----------|
 A|------------|-----------|-------|-------|--------|-------|-------|------------------|
 E|------------|-----------|-------|-------|--------|-------|-------|------------------|
video
Hide picture