Farhat Guitar
Online Private Lessons – Contact Me
Prof. Marcos Farhat
+(54 911) 6577-1480

Mago de Oz| Molinos de Viento
 Style:     
E|----------|---------|--------------|----------|---------|--------------|
B|----------|---------|--------------|----------|---------|--------------| 
G|-7-9--9-7-|-------5-|-------7--7-9-|-7-9--9-7-|-------5-|-------7--7/9-| 
D|-7-9--9-7-|-------5-|-------7--7-9-|-7-9--9-7-|-------5-|-------7--7/9-| 
A|-5-7--7-5-|-3-3-3-3-|-5-5-5-5--5-7-|-5-7--7-5-|-3-3-3-3-|-5-5-5-5--5/7-|  
E|----------|---------|--------------|----------|---------|--------------|
E|-------------------|-------------------|---------------|---------|-----------| 
B|-------------------|-------------------|---------------|---------|-----------| 
G|-9-----------9-7/9-|-9-----------9-9\7-|-------------7-|-------5-|-------7-7-| 
D|-9-----------9-7/9-|-9-----------9-9\7-|-------------7-|-------5-|-------7-7-| 
A|-7-7--7-7--7-7-5/7-|-7-7--7-7--7-7-7\5-|-5-5--5-5--5-5-|-3-3-3-3-|-5-5-5-5—5-| 
E|-------------------|-------------------|---------------|---------|-----------|
video
Hide picture