Farhat Guitar
Online Private Lessons – Contact Me
Prof. Marcos Farhat
+(54 911) 6577-1480

Iron Maiden| Fear of the Dark
 Style:  Heavy Metal    
E|---------------------------------------|----------------------------------------|
B|---------------------------------------|----------------------------------------|
G|-7------7-7--9-9--10-10--9-9--7-7--9-9-|--5-------5-5--7-7--9-9--7-7--5-5--9--5-|
D|----7-7--------------------------------|-----5-5--------------------------------|
A|---------------------------------------|----------------------------------------|
E|---------------------------------------|----------------------------------------| X2
E|----------------------------------|---------------------------------|
B|----------------------------------|---------------------------------|
G|----------------------------------|---------------------------------|
D|-7-7----7-7-9-9-10-10-9-9-7-7-9-9-|-5-5-----5-5-7-7-9-9-7-7-5-5-9-5-|
A|----7-7---------------------------|-----5-5-------------------------|
E|----------------------------------|---------------------------------|
E|---------------------------------|-------------------------------|
B|---------------------------------|-------------------------------|
G|---------------------------------|-------------------------------|
D|-7-7---7-7-9-9-10-10-9-9-7-7-9-9-|-3-3---3-3-5-5-7-7-5-5-3-3-7-3-|
A|----7-7--------------------------|----3-3------------------------|
E|---------------------------------|-------------------------------|
video
Hide picture