Farhat Guitar
Online Private Lessons – Contact Me
Prof. Marcos Farhat
+(54 911) 6577-1480

Green Day| Holiday
 Style:     
E|-------------------------------------------|-------------------------------------------|
B|-------------------------------------------|-------------------------------------------|
G|-----------------------6--6--6--6--6--6--6-|-----------------------8--8--8--8--8--8--8-|
D|--3--3--3--3--3--3--3--6--6--6--6--6--6--6-|--6--6--6--6--6--6--6--8--8--8--8--8--8--8-|
A|--3--3--3--3--3--3--3--4--4--4--4--4--4--4-|--6--6--6--6--6--6--6--6--6--6--6--6--6--6-|
E|--1--1--1--1--1--1--1----------------------|--4--4--4--4--4--4--4----------------------|
E|-------------------------------------------|-----------------------------------------------|
B|-------------------------------------------|-----------------------------------------------|
G|-----------------------6--6--6--6--6--6--6-|-----------------------5—-5--5--5—-5--5--5—-5--|
D|--3--3--3--3--3--3--3--6--6--6--6--6--6--6-|--6--6--6--6--6--6--6--5—-5--5--5—-5--5--5—-5--|
A|--3--3--3--3--3--3--3--4--4--4--4--4--4--4-|--6--6--6--6--6--6--6--3--3--3--3--3--3--3—-3--|
E|--1--1--1--1--1--1--1----------------------|--4--4--4--4--4--4--4--------------------------|
video
Hide picture