Farhat Guitar
Online Private Lessons – Contact Me
Prof. Marcos Farhat
+(54 911) 6577-1480

Soda Stereo| Persiana Americana
 Style:  Pop    
E|---------------------------------------------------------------------|
B|------------------------------------------------------------13/15-15~| 
G|—0-0-2/(4)-0-2/(4)-0-2/(4)-0-2/(4)--12-12-14/(16)-12-14/(16)---------|
D|---------------------------------------------------------------------|
A|---------------------------------------------------------------------|
E|---------------------------------------------------------------------|
E|—-----------------------------------------------14----14-15----17----|
B|--15/20-20~--18----18-18/(20)\(18)~-19\--/15-15----15-------15----15-|
G|----------------19------------------19\------------------------------|
D|---------------------------------------------------------------------|
A|---------------------------------------------------------------------|
E|---------------------------------------------------------------------|
E|-14----15----17----19----17----15----14----15----17----14----14-15--|---17----14----15----17--13-13-13-13-13-13-13-13-13-13\--7-7-|
B|----15----15----15----15----15----15----15----15----15----15--------|15----15----15----15-----13-13-13-13-13-13-13-13-13-13\--9-9-|
G|--------------------------------------------------------------------|---------------------------------------------------------7-7-|
D|--------------------------------------------------------------------|-------------------------------------------------------------|
A|--------------------------------------------------------------------|-------------------------------------------------------------|
E|--------------------------------------------------------------------|-------------------------------------------------------------|
video
Hide picture