Farhat Guitar
Online Private Lessons – Contact Me
Prof. Marcos Farhat
+(54 911) 6577-1480

Metallica| Master of Puppets
 Style:  Heavy Metal    
E|--------|---------0h2p0-------3-|--------------------------|------------------|-------|---|
B|--------|-----3-----------3-----|--------3-----3--------0--|-----0--------0---|-----0-|---|
G|------0-|---2---2-----------2---|-----0-----0-----0--------|---2--------2-----|---2---|---|
D|----2---|-0---------------------|--------------------2-----|------------------|-1-----|---|
A|--2-----|-----------------------|--3-----------------------|-0-----0--2-----2-|-------|---|
R|-0------|-----------------------|--------------------------|------------------|-------|-3-|
E|--------|---------0h2p0-------3-|--------------------------|------------------|----------|
B|--------|-----3-----------3-----|--------3-----3--------0--|-----0--------0---|-----0----|
G|------0-|---2---2-----------2---|-----0-----0-----0--------|---2--------2-----|---2------|
D|----2---|-0---------------------|--------------------2-----|------------------|-1--------|
A|--2-----|-----------------------|--3-----------------------|-0-----0--2-----2-|----------|
R|-0------|-----------------------|--------------------------|------------------|----------|
video
Hide picture